Make your own free website on Tripod.com
















Second Solution
The Living End

Bass Tab
Tabbed by: Andrew Fulton

Intro (Part A)

G-----------------------------------------------------------------------------------------
D--------------4----4-------------4----4---------------4-----4-------------4----4-----
A---2----5--------------2----5-------------2-----5---------------2---5----------------
E-----------------------------------------------------------------------------------------
(Play twice)

Oi! (Part B) G-------------------------//---------------------------------------------------------------
D-------------------------//---------------------------------------------------------------
A----2---2---2----0-----//----2---2-----------------------2---- 2-----------------------
E-------------------------//-------------2---2----3----3---------------------------------

(Play this part 4 times)

> Verse (Part A) (Part B)
G-------------------------------------------//--------------------------------------//
D------------------------------------------//--------------------------------------//-
A-----2---2---2---2----2---2---3-------//---2---0---------------0---2--------//-
E--------------------------------------2--//------------3---2---3-----------0---//--

(play 3 times)

G---------------------------------------------------------------------------------
D---------------4--4---4----4---2-----------------------------------------------
A-------------------------------------5---4---5---4---2---0--------------------
E---2--2--- 2---------------------------------------------------------------------

Chorus

G--------------------------------------------------4-----------5---4-------------
D-------------4------------------4--------2---5-----5---2------------5--------- A---2----5--------5---2----5-------5-------------------------------------------
E----------------------------------------------------------------------------------
G--------------------------------------------------------------------------------
D------------4----------------4----------------4--------------4-----------------
A---2---5-------5---2---5-------5-------4-------4------4---------------------
E--------------------------------------2---------------2-------------------------

G--------------------------------------------------------------------------------
D-----------4--------------------------------------------------------------------
A---2---5------5---2-----2----0--------------5--5--5-------------------------
E------------------------------------3---3-3---------------2----2----2---------

Outro

G--------------------------------------------------------------------------------
D--------------------------------------------------------------------------------
A----2---2----2----2-----------------------------------------------------------
E-------------------------3----3-----2----2------------------------------------

This probably isnít completely right but it is pretty frigginí close. This is the first tab thing which Iíve done so give me a break. If you have any Questions or comments, e-mail me at pimp_monkey_69@hotmail.com.

Iím not sure if the arrangement is correct, but I think it goes like this:

Intro
Verse
Chorus
Intro A
Verse
Chorus
Verse B
Chorus (Under Solo)
Intro B
Verse
Chorus
Outro
Verse